Coldplay - In My Place (Bas) -Gitar Akorları

+ Yorum Gönder
Müzik Köşesi ve Gitar Akorları Bölümünden Coldplay - In My Place (Bas) -Gitar Akorları ile ilgili Kısaca Bilgi
  1. 1
    aybuke
    Usta Üye
    Reklam

    Coldplay - In My Place (Bas) -Gitar Akorları

    Reklam



    Coldplay - In My Place (Bas) -Gitar Akorları

    Forum Alev
    Coldplay - In My Place (Bas) -Gitar Akorları
    Giriş: (aynı zamanda verse'te çalınıyor)
    G|-----------------|-----------------|
    D|-----------------|-----------------|
    A|-------4-4-7-777-|-------4-4-7-777-|
    E|-5--4------------|-5--2------------|

    Koro: (1. bölüm 3 kez çalınıyor)
    G|---------------------|
    D|---------------------|
    A|-5--5--5h7-----------|
    E|-----------5-7-5-4-0-|

    G|---------------------|
    D|---------------------|
    A|-5-5-5-555-7-7-7-777-|
    E|---------------------|

    Bitiriş:
    G|---------------------|
    D|---------------------|
    A|---------------------|
    E|--5------------------|




  2. 2
    AYSEVEN
    Bayan Üye

    Cevap: Coldplay - In My Place (Bas) -Gitar Akorları

    Reklam



    ana vokalliği yapan chris martinin ve beraberinde birkaç arkadaşının kurduğu gurup londrada kendini gösterdi rock ağırlıklı müzik yapan gurubun bir hayli hayran kitlesi var







+ Yorum Gönder
5 üzerinden 5.00 | Toplam : 1 kişi